ISO-10303-21;
HEADER;
FILE_DESCRIPTION (( 'STEP AP203' ),
    '1' );
FILE_NAME ('QB-CTZQWP-10-894-M.STEP',
    '2020-12-24T01:48:59',
    ( '' ),
    ( '' ),
    'SwSTEP 2.0',
    'SolidWorks 2020',
    '' );
FILE_SCHEMA (( 'CONFIG_CONTROL_DESIGN' ));
ENDSEC;

DATA;
#1 = PERSON_AND_ORGANIZATION ( #319, #76 ) ;
#2 = CC_DESIGN_PERSON_AND_ORGANIZATION_ASSIGNMENT ( #28, #79, ( #90 ) ) ;
#3 = AXIS2_PLACEMENT_3D ( 'NONE', #4, #278, #105 ) ;
#4 = CARTESIAN_POINT ( 'NONE',  ( -1.614212418857619014, 0.000000000000000000, 0.000000000000000000 ) ) ;
#5 = FACE_OUTER_BOUND ( 'NONE', #108, .T. ) ;
#6 = APPROVAL_DATE_TIME ( #123, #297 ) ;
#7 = LINE ( 'NONE', #303, #224 ) ;
#8 = EDGE_LOOP ( 'NONE', ( #215, #331 ) ) ;
#9 = VECTOR ( 'NONE', #188, 1000.000000000000000 ) ;
#10 = ORIENTED_EDGE ( 'NONE', *, *, #311, .T. ) ;
#11 = LOCAL_TIME ( 9, 48, 59.00000000000000000, #26 ) ;
#12 = EDGE_LOOP ( 'NONE', ( #80, #315, #184, #213 ) ) ;
#13 = ORIENTED_EDGE ( 'NONE', *, *, #292, .T. ) ;
#14 = CARTESIAN_POINT ( 'NONE',  ( -3.000000000000000000, 0.000000000000000000, 12.69999999999999929 ) ) ;
#15 = AXIS2_PLACEMENT_3D ( 'NONE', #166, #27, #226 ) ;
#16 = CARTESIAN_POINT ( 'NONE',  ( -3.000000000000000000, 0.000000000000000000, 0.000000000000000000 ) ) ;
#17 = EDGE_CURVE ( 'NONE', #181, #111, #125, .T. ) ;
#18 = DIRECTION ( 'NONE',  ( 0.000000000000000000, 0.000000000000000000, 1.000000000000000000 ) ) ;
#19 = FACE_OUTER_BOUND ( 'NONE', #154, .T. ) ;
#20 = ADVANCED_FACE ( 'NONE', ( #148, #270 ), #29, .F. ) ;
#21 = CARTESIAN_POINT ( 'NONE',  ( -1.614212418857619014, 0.000000000000000000, 0.000000000000000000 ) ) ;
#22 = DIRECTION ( 'NONE',  ( 0.000000000000000000, 0.000000000000000000, -1.000000000000000000 ) ) ;
#23 = CALENDAR_DATE ( 2020, 24, 12 ) ;
#24 = AXIS2_PLACEMENT_3D ( 'NONE', #156, #145, #138 ) ;
#25 = CARTESIAN_POINT ( 'NONE',  ( -3.000000000000000000, 6.123233995736766282E-16, -5.000000000000000000 ) ) ;
#26 = COORDINATED_UNIVERSAL_TIME_OFFSET ( 8, 0, .AHEAD. ) ;
#27 = DIRECTION ( 'NONE',  ( -1.000000000000000000, -0.000000000000000000, -0.000000000000000000 ) ) ;
#28 = PERSON_AND_ORGANIZATION ( #319, #76 ) ;
#29 = PLANE ( 'NONE',  #109 ) ;
#30 = PERSON_AND_ORGANIZATION_ROLE ( 'creator' ) ;
#31 = CARTESIAN_POINT ( 'NONE',  ( 1.250000000000000444, 0.000000000000000000, 0.000000000000000000 ) ) ;
#32 = ORIENTED_EDGE ( 'NONE', *, *, #272, .T. ) ;
#33 = AXIS2_PLACEMENT_3D ( 'NONE', #92, #247, #94 ) ;
#34 = VERTEX_POINT ( 'NONE', #121 ) ;
#35 = CC_DESIGN_PERSON_AND_ORGANIZATION_ASSIGNMENT ( #177, #103, ( #69 ) ) ;
#36 = VERTEX_POINT ( 'NONE', #25 ) ;
#37 = AXIS2_PLACEMENT_3D ( 'NONE', #203, #134, #240 ) ;
#38 = DIRECTION ( 'NONE',  ( -1.000000000000000000, -0.000000000000000000, -0.000000000000000000 ) ) ;
#39 = EDGE_CURVE ( 'NONE', #205, #34, #294, .T. ) ;
#40 = PRODUCT_DEFINITION_SHAPE ( 'NONE', 'NONE',  #158 ) ;
#41 = CARTESIAN_POINT ( 'NONE',  ( -3.000000000000000000, 0.000000000000000000, 5.000000000000000000 ) ) ;
#42 = ADVANCED_BREP_SHAPE_REPRESENTATION ( 'QB-CTZQWP-10-894-M', ( #64, #207 ), #81 ) ;
#43 = DIRECTION ( 'NONE',  ( 0.000000000000000000, 0.000000000000000000, 1.000000000000000000 ) ) ;
#44 = AXIS2_PLACEMENT_3D ( 'NONE', #144, #249, #160 ) ;
#45 = LINE ( 'NONE', #281, #113 ) ;
#46 = LINE ( 'NONE', #114, #300 ) ;
#47 = APPROVAL_ROLE ( '' ) ;
#48 = AXIS2_PLACEMENT_3D ( 'NONE', #65, #301, #91 ) ;
#49 = ORIENTED_EDGE ( 'NONE', *, *, #311, .F. ) ;
#50 = VECTOR ( 'NONE', #217, 1000.000000000000000 ) ;
#51 = ADVANCED_FACE ( 'NONE', ( #5 ), #334, .F. ) ;
#52 = PLANE ( 'NONE',  #323 ) ;
#53 = CARTESIAN_POINT ( 'NONE',  ( -3.000000000000000000, 5.000000000000000000, 0.000000000000000000 ) ) ;
#54 = APPROVAL_ROLE ( '' ) ;
#55 = DIRECTION ( 'NONE',  ( -1.000000000000000000, -0.000000000000000000, -0.000000000000000000 ) ) ;
#56 = ADVANCED_FACE ( 'NONE', ( #221 ), #97, .T. ) ;
#57 = CARTESIAN_POINT ( 'NONE',  ( -3.000000000000000000, 0.000000000000000000, 0.000000000000000000 ) ) ;
#58 = EDGE_LOOP ( 'NONE', ( #13, #82, #49, #201 ) ) ;
#59 = EDGE_LOOP ( 'NONE', ( #237, #210, #32, #135 ) ) ;
#60 = VERTEX_POINT ( 'NONE', #41 ) ;
#61 = EDGE_CURVE ( 'NONE', #111, #36, #190, .T. ) ;
#62 = APPROVAL ( #335, 'UNSPECIFIED' ) ;
#63 = ORIENTED_EDGE ( 'NONE', *, *, #328, .T. ) ;
#64 = MANIFOLD_SOLID_BREP ( 'Ðý×', #313 ) ;
#65 = CARTESIAN_POINT ( 'NONE',  ( 3.000000000000000000, 12.69999999999999929, 0.000000000000000000 ) ) ;
#66 = DIRECTION ( 'NONE',  ( -1.000000000000000000, -0.000000000000000000, -0.000000000000000000 ) ) ;
#67 = CARTESIAN_POINT ( 'NONE',  ( -1.250000000000000222, 0.000000000000000000, 0.000000000000000000 ) ) ;
#68 = CC_DESIGN_PERSON_AND_ORGANIZATION_ASSIGNMENT ( #191, #302, ( #206 ) ) ;
#69 = SECURITY_CLASSIFICATION ( '', '', #122 ) ;
#70 = DIRECTION ( 'NONE',  ( -1.000000000000000000, -0.000000000000000000, -0.000000000000000000 ) ) ;
#71 = CARTESIAN_POINT ( 'NONE',  ( -3.000000000000000000, 0.000000000000000000, 0.000000000000000000 ) ) ;
#72 = PERSON_AND_ORGANIZATION ( #319, #76 ) ;
#73 = DIRECTION ( 'NONE',  ( 1.000000000000000000, 0.000000000000000000, 0.000000000000000000 ) ) ;
#74 = DATE_AND_TIME ( #254, #306 ) ;
#75 = ADVANCED_FACE ( 'NONE', ( #264, #186 ), #296, .F. ) ;
#76 = ORGANIZATION ( 'UNSPECIFIED', 'UNSPECIFIED', '' ) ;
#77 = CYLINDRICAL_SURFACE ( 'NONE', #3, 12.69999999999999929 ) ;
#78 = CARTESIAN_POINT ( 'NONE',  ( -1.250000000000000222, 0.000000000000000000, 0.000000000000000000 ) ) ;
#79 = PERSON_AND_ORGANIZATION_ROLE ( 'design_supplier' ) ;
#80 = ORIENTED_EDGE ( 'NONE', *, *, #216, .F. ) ;
#81 =( GEOMETRIC_REPRESENTATION_CONTEXT ( 3 ) GLOBAL_UNCERTAINTY_ASSIGNED_CONTEXT ( ( #175 ) ) GLOBAL_UNIT_ASSIGNED_CONTEXT ( ( #225, #198, #193 ) ) REPRESENTATION_CONTEXT ( 'NONE', 'WORKASPACE' ) );
#82 = ORIENTED_EDGE ( 'NONE', *, *, #174, .T. ) ;
#83 = ORIENTED_EDGE ( 'NONE', *, *, #130, .F. ) ;
#84 = EDGE_CURVE ( 'NONE', #293, #316, #244, .T. ) ;
#85 = AXIS2_PLACEMENT_3D ( 'NONE', #137, #70, #18 ) ;
#86 = AXIS2_PLACEMENT_3D ( 'NONE', #285, #55, #152 ) ;
#87 = EDGE_LOOP ( 'NONE', ( #63, #318 ) ) ;
#88 = ORIENTED_EDGE ( 'NONE', *, *, #174, .F. ) ;
#89 = DIRECTION ( 'NONE',  ( 0.000000000000000000, 0.000000000000000000, 1.000000000000000000 ) ) ;
#90 = PRODUCT_DEFINITION_FORMATION_WITH_SPECIFIED_SOURCE ( 'ANY', '', #206, .NOT_KNOWN. ) ;
#91 = DIRECTION ( 'NONE',  ( -0.000000000000000000, 0.000000000000000000, 1.000000000000000000 ) ) ;
#92 = CARTESIAN_POINT ( 'NONE',  ( 3.000000000000000000, 0.000000000000000000, 0.000000000000000000 ) ) ;
#93 = CARTESIAN_POINT ( 'NONE',  ( 1.250000000000000222, 5.000000000000000000, 0.000000000000000000 ) ) ;
#94 = DIRECTION ( 'NONE',  ( 0.000000000000000000, 0.000000000000000000, 1.000000000000000000 ) ) ;
#95 = CARTESIAN_POINT ( 'NONE',  ( -1.614212418857619014, 6.123233995736767268E-16, -5.000000000000000888 ) ) ;
#96 = CIRCLE ( 'NONE', #274, 5.000000000000000000 ) ;
#97 = CYLINDRICAL_SURFACE ( 'NONE', #289, 12.69999999999999929 ) ;
#98 = APPROVAL_DATE_TIME ( #74, #62 ) ;
#99 = DIRECTION ( 'NONE',  ( 0.000000000000000000, 0.000000000000000000, 1.000000000000000000 ) ) ;
#100 = CARTESIAN_POINT ( 'NONE',  ( -1.614212418857619014, 0.000000000000000000, 0.000000000000000000 ) ) ;
#101 = DATE_TIME_ROLE ( 'creation_date' ) ;
#102 = DIRECTION ( 'NONE',  ( 0.000000000000000000, 0.000000000000000000, -1.000000000000000000 ) ) ;
#103 = PERSON_AND_ORGANIZATION_ROLE ( 'classification_officer' ) ;
#104 = LOCAL_TIME ( 9, 48, 59.00000000000000000, #106 ) ;
#105 = DIRECTION ( 'NONE',  ( 0.000000000000000000, 0.000000000000000000, 1.000000000000000000 ) ) ;
#106 = COORDINATED_UNIVERSAL_TIME_OFFSET ( 8, 0, .AHEAD. ) ;
#107 = ADVANCED_FACE ( 'NONE', ( #266 ), #326, .F. ) ;
#108 = EDGE_LOOP ( 'NONE', ( #233, #179, #288, #260 ) ) ;
#109 = AXIS2_PLACEMENT_3D ( 'NONE', #53, #127, #22 ) ;
#110 = ORIENTED_EDGE ( 'NONE', *, *, #265, .T. ) ;
#111 = VERTEX_POINT ( 'NONE', #269 ) ;
#112 = EDGE_LOOP ( 'NONE', ( #10, #183 ) ) ;
#113 = VECTOR ( 'NONE', #192, 1000.000000000000000 ) ;
#114 = CARTESIAN_POINT ( 'NONE',  ( -1.614212418857619014, 0.000000000000000000, 5.000000000000000888 ) ) ;
#115 = LINE ( 'NONE', #142, #50 ) ;
#116 = APPROVAL_PERSON_ORGANIZATION ( #282, #62, #312 ) ;
#117 = PLANE ( 'NONE',  #159 ) ;
#118 = DIRECTION ( 'NONE',  ( 0.000000000000000000, 0.000000000000000000, 1.000000000000000000 ) ) ;
#119 = AXIS2_PLACEMENT_3D ( 'NONE', #67, #223, #243 ) ;
#120 = DIRECTION ( 'NONE',  ( -1.000000000000000000, -0.000000000000000000, -0.000000000000000000 ) ) ;
#121 = CARTESIAN_POINT ( 'NONE',  ( 3.000000000000000000, 0.000000000000000000, 12.69999999999999929 ) ) ;
#122 = SECURITY_CLASSIFICATION_LEVEL ( 'unclassified' ) ;
#123 = DATE_AND_TIME ( #202, #104 ) ;
#124 = ADVANCED_FACE ( 'NONE', ( #187 ), #299, .F. ) ;
#125 = CIRCLE ( 'NONE', #251, 5.000000000000000888 ) ;
#126 = CARTESIAN_POINT ( 'NONE',  ( 1.250000000000000444, 0.000000000000000000, 5.000000000000000000 ) ) ;
#127 = DIRECTION ( 'NONE',  ( 1.000000000000000000, 0.000000000000000000, 0.000000000000000000 ) ) ;
#128 = CC_DESIGN_SECURITY_CLASSIFICATION ( #69, ( #90 ) ) ;
#129 = EDGE_CURVE ( 'NONE', #60, #36, #229, .T. ) ;
#130 = EDGE_CURVE ( 'NONE', #181, #60, #165, .T. ) ;
#131 = CARTESIAN_POINT ( 'NONE',  ( 3.000000000000000000, 0.000000000000000000, 5.000000000000001776 ) ) ;
#132 = AXIS2_PLACEMENT_3D ( 'NONE', #195, #304, #172 ) ;
#133 = ORIENTED_EDGE ( 'NONE', *, *, #283, .F. ) ;
#134 = DIRECTION ( 'NONE',  ( -1.000000000000000000, -0.000000000000000000, -0.000000000000000000 ) ) ;
#135 = ORIENTED_EDGE ( 'NONE', *, *, #140, .F. ) ;
#136 = VERTEX_POINT ( 'NONE', #242 ) ;
#137 = CARTESIAN_POINT ( 'NONE',  ( -1.614212418857619014, 0.000000000000000000, 0.000000000000000000 ) ) ;
#138 = DIRECTION ( 'NONE',  ( 0.000000000000000000, 0.000000000000000000, 1.000000000000000000 ) ) ;
#139 = DIRECTION ( 'NONE',  ( -1.000000000000000000, -0.000000000000000000, -0.000000000000000000 ) ) ;
#140 = EDGE_CURVE ( 'NONE', #287, #236, #46, .T. ) ;
#141 = AXIS2_PLACEMENT_3D ( 'NONE', #16, #66, #295 ) ;
#142 = CARTESIAN_POINT ( 'NONE',  ( -1.614212418857619014, 1.555301434917138433E-15, -12.69999999999999929 ) ) ;
#143 = CIRCLE ( 'NONE', #132, 12.69999999999999929 ) ;
#144 = CARTESIAN_POINT ( 'NONE',  ( -1.614212418857619014, 0.000000000000000000, 0.000000000000000000 ) ) ;
#145 = DIRECTION ( 'NONE',  ( -1.000000000000000000, -0.000000000000000000, -0.000000000000000000 ) ) ;
#146 = SHAPE_DEFINITION_REPRESENTATION ( #40, #42 ) ;
#147 = PERSON_AND_ORGANIZATION ( #319, #76 ) ;
#148 = FACE_BOUND ( 'NONE', #208, .T. ) ;
#149 = APPLICATION_PROTOCOL_DEFINITION ( 'international standard', 'config_control_design', 1994, #310 ) ;
#150 = ORIENTED_EDGE ( 'NONE', *, *, #17, .T. ) ;
#151 = DIRECTION ( 'NONE',  ( 1.000000000000000000, 0.000000000000000000, 0.000000000000000000 ) ) ;
#152 = DIRECTION ( 'NONE',  ( 0.000000000000000000, 0.000000000000000000, 1.000000000000000000 ) ) ;
#153 = ORIENTED_EDGE ( 'NONE', *, *, #84, .F. ) ;
#154 = EDGE_LOOP ( 'NONE', ( #314, #170 ) ) ;
#155 = CC_DESIGN_APPROVAL ( #62, ( #90 ) ) ;
#156 = CARTESIAN_POINT ( 'NONE',  ( -1.614212418857619014, 0.000000000000000000, 0.000000000000000000 ) ) ;
#157 = ORIENTED_EDGE ( 'NONE', *, *, #129, .F. ) ;
#158 = PRODUCT_DEFINITION ( 'UNKNOWN', '', #90, #194 ) ;
#159 = AXIS2_PLACEMENT_3D ( 'NONE', #93, #163, #268 ) ;
#160 = DIRECTION ( 'NONE',  ( 0.000000000000000000, 0.000000000000000000, 1.000000000000000000 ) ) ;
#161 = EDGE_CURVE ( 'NONE', #111, #181, #257, .T. ) ;
#162 = CARTESIAN_POINT ( 'NONE',  ( -1.614212418857619014, 0.000000000000000000, 5.000000000000000888 ) ) ;
#163 = DIRECTION ( 'NONE',  ( -1.000000000000000000, 0.000000000000000000, -0.000000000000000000 ) ) ;
#164 = CIRCLE ( 'NONE', #33, 5.000000000000001776 ) ;
#165 = LINE ( 'NONE', #162, #241 ) ;
#166 = CARTESIAN_POINT ( 'NONE',  ( 3.000000000000000000, 0.000000000000000000, 0.000000000000000000 ) ) ;
#167 = PERSON_AND_ORGANIZATION ( #319, #76 ) ;
#168 = MECHANICAL_CONTEXT ( 'NONE', #310, 'mechanical' ) ;
#169 = CARTESIAN_POINT ( 'NONE',  ( -3.000000000000000000, 1.555301434917138433E-15, -12.69999999999999929 ) ) ;
#170 = ORIENTED_EDGE ( 'NONE', *, *, #272, .F. ) ;
#171 = CIRCLE ( 'NONE', #185, 5.000000000000000000 ) ;
#172 = DIRECTION ( 'NONE',  ( 0.000000000000000000, 0.000000000000000000, 1.000000000000000000 ) ) ;
#173 = APPROVAL_STATUS ( 'not_yet_approved' ) ;
#174 = EDGE_CURVE ( 'NONE', #205, #293, #115, .T. ) ;
#175 = UNCERTAINTY_MEASURE_WITH_UNIT (LENGTH_MEASURE( 1.000000000000000082E-05 ), #225, 'distance_accuracy_value', 'NONE');
#176 = CARTESIAN_POINT ( 'NONE',  ( -1.250000000000000222, 5.000000000000000000, 0.000000000000000000 ) ) ;
#177 = PERSON_AND_ORGANIZATION ( #319, #76 ) ;
#178 = DIRECTION ( 'NONE',  ( -1.000000000000000000, -0.000000000000000000, -0.000000000000000000 ) ) ;
#179 = ORIENTED_EDGE ( 'NONE', *, *, #161, .T. ) ;
#180 = ORIENTED_EDGE ( 'NONE', *, *, #161, .F. ) ;
#181 = VERTEX_POINT ( 'NONE', #219 ) ;
#182 = EDGE_CURVE ( 'NONE', #236, #136, #171, .T. ) ;
#183 = ORIENTED_EDGE ( 'NONE', *, *, #84, .T. ) ;
#184 = ORIENTED_EDGE ( 'NONE', *, *, #140, .T. ) ;
#185 = AXIS2_PLACEMENT_3D ( 'NONE', #220, #325, #329 ) ;
#186 = FACE_BOUND ( 'NONE', #87, .T. ) ;
#187 = FACE_OUTER_BOUND ( 'NONE', #12, .T. ) ;
#188 = DIRECTION ( 'NONE',  ( -1.000000000000000000, -0.000000000000000000, -0.000000000000000000 ) ) ;
#189 = CIRCLE ( 'NONE', #86, 5.000000000000001776 ) ;
#190 = LINE ( 'NONE', #95, #9 ) ;
#191 = PERSON_AND_ORGANIZATION ( #319, #76 ) ;
#192 = DIRECTION ( 'NONE',  ( -1.000000000000000000, -0.000000000000000000, -0.000000000000000000 ) ) ;
#193 =( NAMED_UNIT ( * ) SI_UNIT ( $, .STERADIAN. ) SOLID_ANGLE_UNIT ( ) );
#194 = DESIGN_CONTEXT ( 'detailed design', #234, 'design' ) ;
#195 = CARTESIAN_POINT ( 'NONE',  ( 3.000000000000000000, 0.000000000000000000, 0.000000000000000000 ) ) ;
#196 = DIRECTION ( 'NONE',  ( -1.000000000000000000, -0.000000000000000000, -0.000000000000000000 ) ) ;
#197 = DATE_AND_TIME ( #271, #214 ) ;
#198 =( NAMED_UNIT ( * ) PLANE_ANGLE_UNIT ( ) SI_UNIT ( $, .RADIAN. ) );
#199 = LOCAL_TIME ( 9, 48, 59.00000000000000000, #308 ) ;
#200 = FACE_OUTER_BOUND ( 'NONE', #262, .T. ) ;
#201 = ORIENTED_EDGE ( 'NONE', *, *, #265, .F. ) ;
#202 = CALENDAR_DATE ( 2020, 24, 12 ) ;
#203 = CARTESIAN_POINT ( 'NONE',  ( -3.000000000000000000, 0.000000000000000000, 0.000000000000000000 ) ) ;
#204 = DATE_AND_TIME ( #23, #11 ) ;
#205 = VERTEX_POINT ( 'NONE', #245 ) ;
#206 = PRODUCT ( 'QB-CTZQWP-10-894-M', 'QB-CTZQWP-10-894-M', '', ( #168 ) ) ;
#207 = AXIS2_PLACEMENT_3D ( 'NONE', #307, #118, #73 ) ;
#208 = EDGE_LOOP ( 'NONE', ( #157, #133 ) ) ;
#209 = ORIENTED_EDGE ( 'NONE', *, *, #17, .F. ) ;
#210 = ORIENTED_EDGE ( 'NONE', *, *, #216, .T. ) ;
#211 = ADVANCED_FACE ( 'NONE', ( #19 ), #117, .F. ) ;
#212 = CYLINDRICAL_SURFACE ( 'NONE', #24, 5.000000000000000888 ) ;
#213 = ORIENTED_EDGE ( 'NONE', *, *, #182, .T. ) ;
#214 = LOCAL_TIME ( 9, 48, 59.00000000000000000, #255 ) ;
#215 = ORIENTED_EDGE ( 'NONE', *, *, #292, .F. ) ;
#216 = EDGE_CURVE ( 'NONE', #261, #136, #45, .T. ) ;
#217 = DIRECTION ( 'NONE',  ( -1.000000000000000000, -0.000000000000000000, -0.000000000000000000 ) ) ;
#218 = AXIS2_PLACEMENT_3D ( 'NONE', #100, #196, #322 ) ;
#219 = CARTESIAN_POINT ( 'NONE',  ( -1.250000000000000222, 0.000000000000000000, 5.000000000000000888 ) ) ;
#220 = CARTESIAN_POINT ( 'NONE',  ( 1.250000000000000444, 0.000000000000000000, 0.000000000000000000 ) ) ;
#221 = FACE_OUTER_BOUND ( 'NONE', #58, .T. ) ;
#222 = CC_DESIGN_PERSON_AND_ORGANIZATION_ASSIGNMENT ( #1, #30, ( #90 ) ) ;
#223 = DIRECTION ( 'NONE',  ( 1.000000000000000000, 0.000000000000000000, 0.000000000000000000 ) ) ;
#224 = VECTOR ( 'NONE', #120, 1000.000000000000000 ) ;
#225 =( LENGTH_UNIT ( ) NAMED_UNIT ( * ) SI_UNIT ( .MILLI., .METRE. ) );
#226 = DIRECTION ( 'NONE',  ( 0.000000000000000000, 0.000000000000000000, 1.000000000000000000 ) ) ;
#227 = APPROVAL_DATE_TIME ( #204, #239 ) ;
#228 = DIRECTION ( 'NONE',  ( 1.000000000000000000, 0.000000000000000000, 0.000000000000000000 ) ) ;
#229 = CIRCLE ( 'NONE', #267, 5.000000000000000000 ) ;
#230 = CC_DESIGN_APPROVAL ( #297, ( #69 ) ) ;
#231 = COORDINATED_UNIVERSAL_TIME_OFFSET ( 8, 0, .AHEAD. ) ;
#232 = FACE_OUTER_BOUND ( 'NONE', #317, .T. ) ;
#233 = ORIENTED_EDGE ( 'NONE', *, *, #61, .F. ) ;
#234 = APPLICATION_CONTEXT ( 'configuration controlled 3d designs of mechanical parts and assemblies' ) ;
#235 = CC_DESIGN_APPROVAL ( #239, ( #158 ) ) ;
#236 = VERTEX_POINT ( 'NONE', #126 ) ;
#237 = ORIENTED_EDGE ( 'NONE', *, *, #248, .F. ) ;
#238 = PRODUCT_RELATED_PRODUCT_CATEGORY ( 'detail', '', ( #206 ) ) ;
#239 = APPROVAL ( #253, 'UNSPECIFIED' ) ;
#240 = DIRECTION ( 'NONE',  ( 0.000000000000000000, 0.000000000000000000, 1.000000000000000000 ) ) ;
#241 = VECTOR ( 'NONE', #139, 1000.000000000000000 ) ;
#242 = CARTESIAN_POINT ( 'NONE',  ( 1.250000000000000444, 6.123233995736766282E-16, -5.000000000000000000 ) ) ;
#243 = DIRECTION ( 'NONE',  ( 0.000000000000000000, 0.000000000000000000, -1.000000000000000000 ) ) ;
#244 = CIRCLE ( 'NONE', #141, 12.69999999999999929 ) ;
#245 = CARTESIAN_POINT ( 'NONE',  ( 3.000000000000000000, 1.555301434917138433E-15, -12.69999999999999929 ) ) ;
#246 = APPROVAL_PERSON_ORGANIZATION ( #72, #297, #54 ) ;
#247 = DIRECTION ( 'NONE',  ( -1.000000000000000000, -0.000000000000000000, -0.000000000000000000 ) ) ;
#248 = EDGE_CURVE ( 'NONE', #261, #287, #189, .T. ) ;
#249 = DIRECTION ( 'NONE',  ( -1.000000000000000000, -0.000000000000000000, -0.000000000000000000 ) ) ;
#250 = DIRECTION ( 'NONE',  ( -1.000000000000000000, -0.000000000000000000, -0.000000000000000000 ) ) ;
#251 = AXIS2_PLACEMENT_3D ( 'NONE', #78, #151, #256 ) ;
#252 = APPROVAL_PERSON_ORGANIZATION ( #147, #239, #47 ) ;
#253 = APPROVAL_STATUS ( 'not_yet_approved' ) ;
#254 = CALENDAR_DATE ( 2020, 24, 12 ) ;
#255 = COORDINATED_UNIVERSAL_TIME_OFFSET ( 8, 0, .AHEAD. ) ;
#256 = DIRECTION ( 'NONE',  ( 0.000000000000000000, 0.000000000000000000, -1.000000000000000000 ) ) ;
#257 = CIRCLE ( 'NONE', #119, 5.000000000000000888 ) ;
#258 = CC_DESIGN_PERSON_AND_ORGANIZATION_ASSIGNMENT ( #167, #332, ( #158 ) ) ;
#259 = DIRECTION ( 'NONE',  ( -1.000000000000000000, -0.000000000000000000, -0.000000000000000000 ) ) ;
#260 = ORIENTED_EDGE ( 'NONE', *, *, #129, .T. ) ;
#261 = VERTEX_POINT ( 'NONE', #275 ) ;
#262 = EDGE_LOOP ( 'NONE', ( #88, #291, #110, #153 ) ) ;
#263 = EDGE_LOOP ( 'NONE', ( #150, #286, #276, #83 ) ) ;
#264 = FACE_OUTER_BOUND ( 'NONE', #8, .T. ) ;
#265 = EDGE_CURVE ( 'NONE', #34, #316, #7, .T. ) ;
#266 = FACE_OUTER_BOUND ( 'NONE', #59, .T. ) ;
#267 = AXIS2_PLACEMENT_3D ( 'NONE', #71, #38, #43 ) ;
#268 = DIRECTION ( 'NONE',  ( -0.000000000000000000, 0.000000000000000000, 1.000000000000000000 ) ) ;
#269 = CARTESIAN_POINT ( 'NONE',  ( -1.250000000000000222, 6.123233995736767268E-16, -5.000000000000000888 ) ) ;
#270 = FACE_OUTER_BOUND ( 'NONE', #112, .T. ) ;
#271 = CALENDAR_DATE ( 2020, 24, 12 ) ;
#272 = EDGE_CURVE ( 'NONE', #136, #236, #96, .T. ) ;
#273 = APPLICATION_PROTOCOL_DEFINITION ( 'international standard', 'config_control_design', 1994, #234 ) ;
#274 = AXIS2_PLACEMENT_3D ( 'NONE', #31, #178, #333 ) ;
#275 = CARTESIAN_POINT ( 'NONE',  ( 3.000000000000000000, 6.123233995736768255E-16, -5.000000000000001776 ) ) ;
#276 = ORIENTED_EDGE ( 'NONE', *, *, #283, .T. ) ;
#277 = DATE_TIME_ROLE ( 'classification_date' ) ;
#278 = DIRECTION ( 'NONE',  ( -1.000000000000000000, -0.000000000000000000, -0.000000000000000000 ) ) ;
#279 = CALENDAR_DATE ( 2020, 24, 12 ) ;
#280 = CC_DESIGN_DATE_AND_TIME_ASSIGNMENT ( #197, #101, ( #158 ) ) ;
#281 = CARTESIAN_POINT ( 'NONE',  ( -1.614212418857619014, 6.123233995736767268E-16, -5.000000000000000888 ) ) ;
#282 = PERSON_AND_ORGANIZATION ( #319, #76 ) ;
#283 = EDGE_CURVE ( 'NONE', #36, #60, #284, .T. ) ;
#284 = CIRCLE ( 'NONE', #330, 5.000000000000000000 ) ;
#285 = CARTESIAN_POINT ( 'NONE',  ( 3.000000000000000000, 0.000000000000000000, 0.000000000000000000 ) ) ;
#286 = ORIENTED_EDGE ( 'NONE', *, *, #61, .T. ) ;
#287 = VERTEX_POINT ( 'NONE', #131 ) ;
#288 = ORIENTED_EDGE ( 'NONE', *, *, #130, .T. ) ;
#289 = AXIS2_PLACEMENT_3D ( 'NONE', #21, #327, #89 ) ;
#290 = CIRCLE ( 'NONE', #37, 12.69999999999999929 ) ;
#291 = ORIENTED_EDGE ( 'NONE', *, *, #39, .T. ) ;
#292 = EDGE_CURVE ( 'NONE', #34, #205, #143, .T. ) ;
#293 = VERTEX_POINT ( 'NONE', #169 ) ;
#294 = CIRCLE ( 'NONE', #15, 12.69999999999999929 ) ;
#295 = DIRECTION ( 'NONE',  ( 0.000000000000000000, 0.000000000000000000, 1.000000000000000000 ) ) ;
#296 = PLANE ( 'NONE',  #48 ) ;
#297 = APPROVAL ( #173, 'UNSPECIFIED' ) ;
#298 = ADVANCED_FACE ( 'NONE', ( #232 ), #52, .F. ) ;
#299 = CYLINDRICAL_SURFACE ( 'NONE', #85, 5.000000000000000888 ) ;
#300 = VECTOR ( 'NONE', #250, 1000.000000000000000 ) ;
#301 = DIRECTION ( 'NONE',  ( -1.000000000000000000, 0.000000000000000000, -0.000000000000000000 ) ) ;
#302 = PERSON_AND_ORGANIZATION_ROLE ( 'design_owner' ) ;
#303 = CARTESIAN_POINT ( 'NONE',  ( -1.614212418857619014, 0.000000000000000000, 12.69999999999999929 ) ) ;
#304 = DIRECTION ( 'NONE',  ( -1.000000000000000000, -0.000000000000000000, -0.000000000000000000 ) ) ;
#305 = DATE_AND_TIME ( #279, #199 ) ;
#306 = LOCAL_TIME ( 9, 48, 59.00000000000000000, #231 ) ;
#307 = CARTESIAN_POINT ( 'NONE',  ( 0.000000000000000000, 0.000000000000000000, 0.000000000000000000 ) ) ;
#308 = COORDINATED_UNIVERSAL_TIME_OFFSET ( 8, 0, .AHEAD. ) ;
#309 = ADVANCED_FACE ( 'NONE', ( #200 ), #77, .T. ) ;
#310 = APPLICATION_CONTEXT ( 'configuration controlled 3d designs of mechanical parts and assemblies' ) ;
#311 = EDGE_CURVE ( 'NONE', #316, #293, #290, .T. ) ;
#312 = APPROVAL_ROLE ( '' ) ;
#313 = CLOSED_SHELL ( 'NONE', ( #56, #321, #107, #211, #124, #51, #20, #309, #75, #298 ) ) ;
#314 = ORIENTED_EDGE ( 'NONE', *, *, #182, .F. ) ;
#315 = ORIENTED_EDGE ( 'NONE', *, *, #328, .F. ) ;
#316 = VERTEX_POINT ( 'NONE', #14 ) ;
#317 = EDGE_LOOP ( 'NONE', ( #209, #180 ) ) ;
#318 = ORIENTED_EDGE ( 'NONE', *, *, #248, .T. ) ;
#319 = PERSON ( 'UNSPECIFIED', 'UNSPECIFIED', 'UNSPECIFIED', ('UNSPECIFIED'), ('UNSPECIFIED'), ('UNSPECIFIED') ) ;
#320 = FACE_OUTER_BOUND ( 'NONE', #263, .T. ) ;
#321 = ADVANCED_FACE ( 'NONE', ( #320 ), #212, .F. ) ;
#322 = DIRECTION ( 'NONE',  ( 0.000000000000000000, 0.000000000000000000, 1.000000000000000000 ) ) ;
#323 = AXIS2_PLACEMENT_3D ( 'NONE', #176, #228, #102 ) ;
#324 = CC_DESIGN_DATE_AND_TIME_ASSIGNMENT ( #305, #277, ( #69 ) ) ;
#325 = DIRECTION ( 'NONE',  ( -1.000000000000000000, -0.000000000000000000, -0.000000000000000000 ) ) ;
#326 = CYLINDRICAL_SURFACE ( 'NONE', #44, 5.000000000000000888 ) ;
#327 = DIRECTION ( 'NONE',  ( -1.000000000000000000, -0.000000000000000000, -0.000000000000000000 ) ) ;
#328 = EDGE_CURVE ( 'NONE', #287, #261, #164, .T. ) ;
#329 = DIRECTION ( 'NONE',  ( 0.000000000000000000, 0.000000000000000000, 1.000000000000000000 ) ) ;
#330 = AXIS2_PLACEMENT_3D ( 'NONE', #57, #259, #99 ) ;
#331 = ORIENTED_EDGE ( 'NONE', *, *, #39, .F. ) ;
#332 = PERSON_AND_ORGANIZATION_ROLE ( 'creator' ) ;
#333 = DIRECTION ( 'NONE',  ( 0.000000000000000000, 0.000000000000000000, 1.000000000000000000 ) ) ;
#334 = CYLINDRICAL_SURFACE ( 'NONE', #218, 5.000000000000000888 ) ;
#335 = APPROVAL_STATUS ( 'not_yet_approved' ) ;
ENDSEC;
END-ISO-10303-21;
